Song name
# A B C D E F G H I J K L M N O P Q R S T U V W X Y Z

Washya - Social Inadequacy tab

-----------------------------------------------------------------------------
                     Social Inadequacy - Washya
-----------------------------------------------------------------------------
Tuning: Drop B (BF#BEG#C#) 
Intro
B-|----------------------------------------|
F#|----------------------------------------|
B-|----------------------------------------|
E-|-------5-4------------5-4-----------4-5-|
G#|-6-5-0-3-2-0-1/-6-5-0-3-2-5/6-0-5-0-2-3-|
C#|-6-5-0-----0-1/-6-5-0-----5/6-0-5-0-----|

Verses
B-|---------------------------------------------------------------------|
F#|---------------------------------------------------------------------|
B-|---------------------------------------------------------------------|
E-|---------------------------------------------------------------------|
G#|-----------------------3h5p3-------7h8p7-----------------------6\5\3-|
C#|-0-0-0-0-0-0-0-0-5h6p5-------5h6p5-------0-0-0-0-0-0-0-0-5h6p5-6\5\3-|
PM  * * * * * * * *                         * * * * * * * *  

Chorus
B-|------------------------------------------------------------|
F#|------------------------------------------------------------|
B-|------------------------------------------------------------|
E-|-------5555555---------------333-333/666-666--------5555-55-|
G#|-------3333333-666666-333333-111-111/444-444-222222-3333-33-|
C#|--//xx---------666666-333333-----------------222222---------|
PM                        *****                  ***** 

Solo
B-|---------------------------------------------------------------8-7-5~-|
F-|-----------------------------------------------------7-5-4-5-7--------|
B#|-------------------------------------------8-7-5-7-8------------------|
E-|-------------5-7-8-7-5-----------7-5-4-5-7----------------------------|
G#|-5-7-8-5-7-8-----------8-7-5-7-8--------------------------------------|
C#|----------------------------------------------------------------------|

B-|--------------------------------------------7---7-8\7----------------|
F-|-8-7-5-7~-8-7-5-7~-/9-7-6----6h7p6\4h6p4~-5---5-------8-7-5-7-8------|
B#|--------------------------7b------------------------------------5-7~-|
E-|---------------------------------------------------------------------|
G#|---------------------------------------------------------------------|
C#|---------------------------------------------------------------------|

Intro
B-|----------------------------------------|
F#|----------------------------------------|
B-|----------------------------------------|
E-|-------5-4------------5-4-----------4-5-|
G#|-6-5-0-3-2-0-1/-6-5-0-3-2-5/6-0-5-0-2-3-|
C#|-6-5-0-----0-1/-6-5-0-----5/6-0-5-0-----|

Verses
B-|---------------------------------------------------------------------|
F#|---------------------------------------------------------------------|
B-|---------------------------------------------------------------------|
E-|---------------------------------------------------------------------|
G#|-----------------------3h5p3-------7h8p7-----------------------6\5\3-|
C#|-0-0-0-0-0-0-0-0-5h6p5-------5h6p5-------0-0-0-0-0-0-0-0-5h6p5-6\5\3-|
PM  * * * * * * * *                         * * * * * * * *  

Chorus
B-|------------------------------------------------------------|
F#|------------------------------------------------------------|
B-|------------------------------------------------------------|
E-|-------5555555---------------333-333/666-666--------5555-55-|
G#|-------3333333-666666-333333-111-111/444-444-222222-3333-33-|
C#|--//xx---------666666-333333-----------------222222---------|
PM                        *****                  ***** 
Tap to rate this tab
# A B C D E F G H I J K L M N O P Q R S T U V W X Y Z