Song name
# A B C D E F G H I J K L M N O P Q R S T U V W X Y Z

Washya - From Rags Too Riches tab

-----------------------------------------------------------------------------
                       From Rags Too Riches - Washya
-----------------------------------------------------------------------------
Tuning: Drop D (EBGDAD)
Intro
E|----------------------------------------------|
B|----------------------------------------------|
G|----------------------------------------------|
D|-----5-555------------------5-555--------8888-|
A|-000-3-333-3-333-6-656--000-3-333-3-333-/6666-|
D|-000-------3-333-6-656--000-------3-333-------|

Verses
E|-----------------------------------------------------|
B|-----------------------------------------------------|
G|-----------------------------------------------------|
D|-555-555---------------------555-555/888-888---------|
A|-333-333-5-555-555-2-222-222-333-333/666-666-5556663-|
D|---------5-555-555-2-222-222-----------------5556663-|
PM *** *** * *** *** * *** *** *** *** *** *** ******* 

Chorus
E|------------------------------------------------------------------|
B|------------------------------------------------------------------|
G|------------------------------------------------------------------|
D|--------------------------------555555555555----------------------|
A|-2222222222222222/5555555555555-333333333333-6666666666-33333333--|
D|-2222222222222222/5555555555555--------------6666666666-33333333--|

E|---------------------------------------|
B|---------------------------------------|
G|---------------------------------------|
D|-555555555\333333333-------------------|
A|-333333333\111111111-000000000-0230230-|
D|---------------------000000000-0230230-|

Guitar Lead
E|-/6p5p3h6p5p3h6p5p3h6p5p3h6p5p3h6p5p3h6p5p3h6p5p3-----------------------|
B|--------------------------------------------------8p7p5h8p7p5-/13p12h13-|
G|------------------------------------------------------------------------|
D|------------------------------------------------------------------------|
A|------------------------------------------------------------------------|
D|------------------------------------------------------------------------|

E|--/15p13p12h15p13p12h15p13p12h15p13p12h15p13p12/17p16p14h17p16p14/18~-|
B|----------------------------------------------------------------------|
G|----------------------------------------------------------------------|
D|----------------------------------------------------------------------|
A|----------------------------------------------------------------------|
E|----------------------------------------------------------------------|

Tuning: Drop D (EBGDAD)
Intro
E|----------------------------------------------|
B|----------------------------------------------|
G|----------------------------------------------|
D|-----5-555------------------5-555--------8888-|
A|-000-3-333-3-333-6-656--000-3-333-3-333-/6666-|
D|-000-------3-333-6-656--000-------3-333-------|

Verses
E|-----------------------------------------------------|
B|-----------------------------------------------------|
G|-----------------------------------------------------|
D|-555-555---------------------555-555/888-888---------|
A|-333-333-5-555-555-2-222-222-333-333/666-666-5556663-|
D|---------5-555-555-2-222-222-----------------5556663-|
PM *** *** * *** *** * *** *** *** *** *** *** ******* 

Chorus
E|------------------------------------------------------------------|
B|------------------------------------------------------------------|
G|------------------------------------------------------------------|
D|--------------------------------555555555555----------------------|
A|-2222222222222222/5555555555555-333333333333-6666666666-33333333--|
D|-2222222222222222/5555555555555--------------6666666666-33333333--|

E|---------------------------------------|
B|---------------------------------------|
G|---------------------------------------|
D|-555555555\333333333-------------------|
A|-333333333\111111111-000000000-0230230-|
D|---------------------000000000-0230230-|
Tap to rate this tab
# A B C D E F G H I J K L M N O P Q R S T U V W X Y Z