Song name
# A B C D E F G H I J K L M N O P Q R S T U V W X Y Z

Washya - Inked In Blood tab

-----------------------------------------------------------------------------
                     Inked In Blood - Washya
-----------------------------------------------------------------------------
Tuning: Drop C (DAFCGC)
Intro
D|------------------------|
A|------------------------|
F|------------------------|
C|-0-3-/6-5-0-1-3-4-3-1-0-|
G|-0-3-/6-5-0-1-3-4-3-1-0-|
C|-0-3-/6-5-0-1-3-4-3-1-0-|x3

Verses
D|---------------------------------------------------------------|
A|---------------------------------------------------------------|
F|---------------------------------------------------------------|
C|---------3-55-55---------1-33-33---------5-66-66---------11-11-|
G|-------3---55-55-------1---33-33-------5---66-66---------11-11-|
C|-0-3-5-----55-55-0-1-3-----33-33-0-3-5-----66-66-0-1-3-4-11-11-|
PM * * * * *       * * * * *       * * * * *       * * * *  

Chorus
D|------------------------------------------------------------------------|
A|------------------------------------------------------------------------|
F|------------------------------------------------------------------------|
C|-333333333/666666666\55555555\1111/333/444-11-11-0----------3-----5-3-2-|
G|-333333333/666666666\55555555\1111/333/444-11-11-0------3-4---4-3-5-3-2-|
C|-333333333/666666666\55555555\1111/333/444-11-11-0-/3-5-----------5-3-2-|
PM                                                    * * * * * * * 

Solo
D|---10-7---7-10-7---7-10-7---7-10/12p9----9-12-9----9-12-9----9-12-|
A|-/------8--------8--------8-----------10--------10--------10------|
F|------------------------------------------------------------------|
C|------------------------------------------------------------------|
G|------------------------------------------------------------------|
C|------------------------------------------------------------------|

D|-/15-12----12-15-12----12-15-12----15-18-15----15h18p15h18p15h18-20~~-|
A|--------13----------13----------13----------16------------------------|
F|----------------------------------------------------------------------|
C|----------------------------------------------------------------------|
G|----------------------------------------------------------------------|
C|----------------------------------------------------------------------|
Tap to rate this tab
# A B C D E F G H I J K L M N O P Q R S T U V W X Y Z