Song name
# A B C D E F G H I J K L M N O P Q R S T U V W X Y Z

Washya - 10 Foot Mastodon tab

-------------------------------------------------------------------------------
               10 foot mastodon - Washya
-------------------------------------------------------------------------------
Tuning: Drop C (DAFCGC)
Intro
D|-------------------------------------------------------------------------|
A|-------------------------------------------------------------------------|
F|-------------------------------------------------------------------------|
C|-------------------------------------------------------------------------|
G|-00-00-00-------------00-00-00-------------00-00-00-------8p7p5-00-00-00-|
C|-00-00-00-0h3p0-6p5p3-00-00-00-0h3p0-6p5p3-00-00-00-8p7p5-------00-00-00-|
PM ** ** **             ** ** **             ** ** **             ** ** ** 

Verses
D|-----------------------------------------------------------|
A|-----------------------------------------------------------|
F|-----------------------------------------------------------|
C|-----------------------------------------------------------|
G|-00-00-00-00-0h1-11-11-11/6-5-3-33-33-33-0h1-0-00-00-00-00-|
C|-00-00-00-00-0h1-11-11-11/6-5-3-33-33-33-0h1-0-00-00-00-00-|
PM ** ** ** ** *** ** ** ** * * * ** ** ** *** * ** ** ** ** 

Chorus
D|-------------------------------------------------------------------------|
A|-------------------------------------------------------------------------|
F|-------------------------------------------------------------------------|
C|----------3-----------------3h5p3----------------------------------------|
G|-0000-3h5----5h6p5-0000-3h5-------0000-------------0000-------8p7p5-11/3-|
C|-0000--------------0000-----------0000-0h3p0-6p5p3-0000-8p7p5-------11/3-|
PM ****              ****           ****             **** 
Tap to rate this tab
# A B C D E F G H I J K L M N O P Q R S T U V W X Y Z