Song name
# A B C D E F G H I J K L M N O P Q R S T U V W X Y Z

Washya - A New Seed tab

-----------------------------------------------------------------------------
 A New Seed - Washya
-----------------------------------------------------------------------------
Tuning: Drop D (DADGBE)
Intro/Verses
E|-----------------------------------------------------------------|
B|-----------------------------------------------------------------|
G|-----------------------------------------------------------------|
D|-----------------------------------------------------------------|
A|-----------------------------------------------------------------|
D|-0000-10h12p10p9h12p10p9-0000-8h10p8p7h10p8p7-0000-3h5p3p2h5p3p2-|
PM ****                    ****                 **** 

Chorus
E|-------------------------------------------------------------------------|
B|-------------------------------------------------------------------------|
G|-------------------------------------------------------------------------|
D|-------------------------------------------------------------------------|
A|-7-8-7-5--5-4-3--5-6-5-3--3-2-1--7-8-1010101010-55555-77777-5-4-3--3-2-1-|
D|-7-8-7-5--5-4-3--5-6-5-3--3-2-1--7-8-1010101010-55555-77777-5-4-3--3-2-1-|

Solo
E|---------------------------------------------------------------------14~-|
B|------------------------------------------------------------15-14-12-----|
G|------------------------------------------------------15-14--------------|
D|------------------------------------13-15-16-13-15-16--------------------|
A|------------------11-13-14-11-13-14--------------------------------------|
D|--9-11-12-9-11-12--------------------------------------------------------|
PM  * ** ** * ** ** ** ** ** ** ** ** 

E|-15p14p12h15p14p12h15p14p12/16p15p13h16p15p13h16-------------------------|
B|-------------------------------------------------14-13----13-12----------|
G|-------------------------------------------------------14-------15-14-12-|
D|-------------------------------------------------------------------------|
A|-------------------------------------------------------------------------|
D|-------------------------------------------------------------------------|

E|-----------------------------------------------------|
B|-----------------------------------------------------|
G|----14-12--------------------------------------------|
D|-15-------13-15-------15-14-------13-----------------|
A|----------------14-12-------14-12----15-13-12--------|
D|----------------------------------------------14\12~-|

Intro/Verses
E|-----------------------------------------------------------------|
B|-----------------------------------------------------------------|
G|-----------------------------------------------------------------|
D|-----------------------------------------------------------------|
A|-----------------------------------------------------------------|
D|-0000-10h12p10p9h12p10p9-0000-8h10p8p7h10p8p7-0000-3h5p3p2h5p3p2-|
PM ****                    ****                 **** 
Tap to rate this tab
# A B C D E F G H I J K L M N O P Q R S T U V W X Y Z