Song name
# A B C D E F G H I J K L M N O P Q R S T U V W X Y Z

Washya - Shriek Of The Lamb tab

-------------------------------------------------------------------------------
         Shriek Of The Lamb - Washya
-------------------------------------------------------------------------------
Tuning: Drop D (DADGBE)
Intro
E|------------------------------------------------------|
B|------------------------------------------------------|
G|------------------------------------------------------|
D|---------------------------7/9/10\9-------------------|
A|---------------------5-----5/7/8-\7-5-7-8-7-5-3-2-1-0-|
D|--0-00-10h12p10-/5h7---7-5----------5-7-8-7-5-3-2-1-0-|
PM  * **                              * *       * * *  

Verses
E|------------------------------------------------------------|
B|------------------------------------------------------------|
G|------------------------------------------------------------|
D|------------------------------------------------------------|
A|---------------------------------------------1h3-5-3-2-1-00-|
D|-0000-0-0000-0-0000-0-0000-0-0-0000-0-0-0000-1h3-5-3-2-1-00-|
PM **** * **** * **** * **** * * **** * * ****

Chorus
E|--------------------------------------------|
B|--------------------------------------------|
G|--------------------------------------------|
D|--------9/10\9-----------9/10\9-------------|
A|-0-00-0-7/-8\7-3-5-6-5-3-7/-8\7-8-7-6-4-2-0-|
D|-0-00-0--------3-5-6-5-3--------8-7-6-4-2-0-|
PM * ** *
Tap to rate this tab
 
# A B C D E F G H I J K L M N O P Q R S T U V W X Y Z