Song name
# A B C D E F G H I J K L M N O P Q R S T U V W X Y Z

Washya - Human Remains tab

-----------------------------------------------------------------------------
                      Human Remains - Washya
-----------------------------------------------------------------------------
Tuning: Standard EBGDAE)
Intro
E|-15-12----------------15-12----------------15-12-----------------|
B|-------14-13-11-------------14-13-11-------------14-13-11--------|
G|----------------13-12----------------13-12----------------13-12~-|
D|-----------------------------------------------------------------|
A|-----------------------------------------------------------------|
E|-----------------------------------------------------------------|x4

Verses
E|---------------------------------------------------------------|
B|---------------------------1-----------------------------------|
G|-----5-4---------------------2p0-------------------------------|
D|---2---------0-----0-----4-------4---------2-------------------|
A|-0---------4-----2-----2-----------2-----2----2-3333/5555-33-2-|
E|---------2-----3-----0---------------0-4------0-1111/3333-11-0-|

Chorus
E|-------------------------------------------|
B|-------------------------------------------|
G|-------------------------------------------|
D|----------8\7---------3------------------2-|
A|-22222222-6\5-5/7-3/5-1-5--5-4-3-2-3-4-5-0-|
E|-00000000-----3/5-1/3---3--3-2-1-0-1-2-3---|
PM ********                  * * * * * * *  

Tap to rate this tab
 
# A B C D E F G H I J K L M N O P Q R S T U V W X Y Z