Song name
# A B C D E F G H I J K L M N O P Q R S T U V W X Y Z

Washya - Rusty Needle tab

-----------------------------------------------------------------------------
                       Rusty Needle - Washya
-----------------------------------------------------------------------------
Tuning: Standard (EBGDAE)
Intro
E|-----------2---------------------4----------------------------------------|
B|---------2---2-----------------4---4-----------------2--------------------|
G|-------3-------3-------------5-------5-------------2---2------------------|
D|-----4-----------4---------6-----------6---------4-------4---------0-----2|
A|---4---------------4-----6---------------6-----4-----------4-----2-----2--|
E|-2-------------------2/4-------------------4\2---------------2/3-----4----|

Chorus
E|-------------------------------------------------------------|
B|-------------------------------------------------------------|
G|-------------------------------------------------------------|
D|-5/7-8\7-5/7-8\7-----------------------5/7-8\7-5/7-8\7-------|
A|-3/5-6\5-3/5-6\5-5/6/7-2-2-2-2-2-2-2-2-3/5-6\5-3/5-6\5-3/4/5-|
E|-----------------3/4/5-0-0-0-0-0-0-0-0-----------------1/2/3-|
PM                       * * * * * * * * 

Guitar Solo (Repeat fast x13)
E|-12t18p15p12t18p15p12/14t19p16p14t19p16p14-------------------------18b-|
B|-------------------------------------------15t20p17p15t20p15t20p15-----|
G|-----------------------------------------------------------------------|
D|-----------------------------------------------------------------------|
A|-----------------------------------------------------------------------|
E|-----------------------------------------------------------------------|
Tap to rate this tab
# A B C D E F G H I J K L M N O P Q R S T U V W X Y Z