Song name
# A B C D E F G H I J K L M N O P Q R S T U V W X Y Z

Washya - Rylock tab

-----------------------------------------------------------------------------
                           Rylock - Washya
-----------------------------------------------------------------------------
Tuning: Drop D (DADGBE)
intro/chorus
E|--------------------------------------------------|
B|--------------------------------------------------|
G|--------------------------------------------------|
D|----5---7-----------5-------3---------------------|
A|----3---5---6---5---3---3---1-3-5-1-----3h5-----1-|
D|-00---0---0-6-0-5-0---0-3-0---3-5-1/3h5-----1h3---|
PM **   *   *   *   *   *   * 

Verses
E|-----------------------------------------------------------------------|
B|-----------------------------------------------------------------------|
G|-----------------------------------------------------------------------|
D|-----------------------------------------------------------------------|
A|---------------3h5-----1-----------666-333-555---------------3h5-----1-|
D|-0-0-0-0-0-3h5-----1h3---0-0-0-0-0-666-333-555-0-0-0-0-0-3h5-----1h3---|
PM * * * * *               * * * * *             * * * * * 

E|-----------------------|
B|-----------------------|
G|-----------------------|
D|-----------888-555-777-|
A|-----------666-333-555-|
D|-0-0-0-0-0-------------|
PM * * * * * 

Guitar Solo
E|----------------------------------------------------------------|
B|----7----------------------------------------------------10p8p7-|
G|----7---9-7-------9b-------------------------------8p7h8--------|
D|-9b---9-----9-7---9b-7h10p7h10p7h9p7h9p7h9p7~\-7h9--------------|
A|----------------7-----------------------------------------------|
D|----------------------------------------------------------------|

E|-/10h13p10h13p10h13p10h12p10h12p10h12h10---------------------------------|
B|-----------------------------------------11p10~--------------------------|
G|------------------------------------------------4h5p4h5/5h7p5h7p6h7p6h8/-|
D|-------------------------------------------------------------------------|
A|-------------------------------------------------------------------------|
D|-------------------------------------------------------------------------|

E|--------------------------------------------------------------------|
B|--------------------------------------------------------13h15p13h15-|
G|-10p8h10p8h10/13p12h13p12h13p12h13h15p13h15p13h15p13h15-------------|
D|--------------------------------------------------------------------|
A|--------------------------------------------------------------------|
D|--------------------------------------------------------------------|

E|--------17p15h17p15h17p15h18p17p15h18p17p15-------18b~-18b~-|
B|-p13h15-------------------------------------13h15-18b~-18b~-|
G|------------------------------------------------------------|
D|------------------------------------------------------------|
A|------------------------------------------------------------|
D|------------------------------------------------------------|


Tuning: Drop D (DADGBE)
intro/chorus
E|--------------------------------------------------|
B|--------------------------------------------------|
G|--------------------------------------------------|
D|----5---7-----------5-------3---------------------|
A|----3---5---6---5---3---3---1-3-5-1-----3h5-----1-|
D|-00---0---0-6-0-5-0---0-3-0---3-5-1/3h5-----1h3---|
PM **   *   *   *   *   *   * 

Verses
E|-----------------------------------------------------------------------|
B|-----------------------------------------------------------------------|
G|-----------------------------------------------------------------------|
D|-----------------------------------------------------------------------|
A|---------------3h5-----1-----------666-333-555---------------3h5-----1-|
D|-0-0-0-0-0-3h5-----1h3---0-0-0-0-0-666-333-555-0-0-0-0-0-3h5-----1h3---|
PM * * * * *               * * * * *             * * * * * 

E|-----------------------|
B|-----------------------|
G|-----------------------|
D|-----------888-555-777-|
A|-----------666-333-555-|
D|-0-0-0-0-0-------------|
Tap to rate this tab
 
# A B C D E F G H I J K L M N O P Q R S T U V W X Y Z