Song name
# A B C D E F G H I J K L M N O P Q R S T U V W X Y Z

Washya - Deep Cover tab

-------------------------------------------------------------------------------
                       Deep Cover - Washya
-------------------------------------------------------------------------------
Tuning: Drop D (DADGBE)
Intro/Verses
E|-------------------------------------|
B|-------------------------------------|
G|-5-55/8-88/101010101010--------------|
D|-------------------------------------|
A|-3-33/6-66/8-8-8-8-8-8-888888-555555-|
D|-----------------------888888-555555-|

Chorus
E|------------------------------------------|
B|------------------------------------------|
G|-5555/8888--------------------------------|
D|------------------------------------------|
A|-3333/6666-88888-5555-3-5-3-5-3\1111111-0-|
D|-----------88888-5555-3-5-3-5-3\1111111-0-|

Interlude  (Play Fast)                           Then
E|-----------------------------------------------|-------------------|
B|-----------------------------------------------|-------------------|
G|-----------------------------------------------|-------------------|
D|-----------------5-3---------------------------|-3-333-------------|
A|-------2-0-3-2-0-----2-3-------0-3-2-0---------|-1-111-333/7-------|
D|-0-2-3-------------------5-3-2---------0-3-2-0-|-------333/7-7bv~~-|
PM * * * * * * * * * * * * * * * * * * * * * * * 
Tap to rate this tab
 
# A B C D E F G H I J K L M N O P Q R S T U V W X Y Z