Song name
# A B C D E F G H I J K L M N O P Q R S T U V W X Y Z

Washya - Seven Stitches tab

-------------------------------------------------------------------------------
            Seven Stitches - Washya
-------------------------------------------------------------------------------
Tuning: Drop C (DAFCGC)
Intro
D|--------------------------------------------------------------------------|
A|--------------------------------------------------------------------------|
F|-7-3-5--------------------------------------------------------------------|
C|-7-3-5--------------------------------------------------------------------|
G|-5-1-3--------------------------------------------------------------------|
C|-------222222222222h5p2222222222222h4p22222222222h5p2222222h4p22222-2h3h5-|
PM       ******************************************************************

D|----------------------------------------------------|
A|----------------------------------------------------|
F|----------------------------------------------------|
C|----------------------------------------------------|
G|-2h3h5------------------------------------6666-11/3-|
C|-------2222222h5p2222222222h4p22222222222-6666-11/3-|
PM ***** **********************************

Verses
D|-----------------------------------------------------------|
A|-----------------------------------------------------------|
F|-----------------------------------------------------------|
C|--------------------------------------------------10-9-8-7-|
G|------5p3h5------5p3h5------5p2h3------5p3h5------8--7-6-5-|
C|-0000-------0000-------0000-------0000-------0000----------|
PM ****       ****       ****       ****       **** 

Chorus
D|---------------------------------------------------------|
A|---------------------------------------------------------|
F|----77----99-------------77----7/8-5---------------------|
C|----77----99-7-----2h3p2-77----7/8-5-----0---------------|
G|-xx-55-xx-77-7---3-------55-xx-5/6-3---1---1p0-3333/66-5-|
C|-xx----xx----5-5------------xx-------3---------3333/66-5-|
PM               * * *****             * * * *** 

Solo (fast and quick)
D|-/12p9----9h12p9----9h12p9-------15p12----12h15p12-----------~16p14----14-|
A|-------10--------10--------10/12-------13----------13/15-15b--------15----|
F|--------------------------------------------------------------------------|
C|--------------------------------------------------------------------------|
G|--------------------------------------------------------------------------|
C|--------------------------------------------------------------------------|

D|-14h16p14----14h16p14----14h16p14h16p14h16p14h17-17-17b~~-|
A|----------15----------15----------------------------------|
F|----------------------------------------------------------|
C|----------------------------------------------------------|
G|----------------------------------------------------------|
C|----------------------------------------------------------|

Verses
D|-----------------------------------------------------------|
A|-----------------------------------------------------------|
F|-----------------------------------------------------------|
C|--------------------------------------------------10-9-8-7-|
G|------5p3h5------5p3h5------5p2h3------5p3h5------8--7-6-5-|
C|-0000-------0000-------0000-------0000-------0000----------|
PM ****       ****       ****       ****       **** 
Tap to rate this tab
# A B C D E F G H I J K L M N O P Q R S T U V W X Y Z