Song name
# A B C D E F G H I J K L M N O P Q R S T U V W X Y Z

Washya - Survival Of The Fittest tab

-----------------------------------------------------------------------------
                    Survival Of The Fittest - Wahsya
-----------------------------------------------------------------------------
Tuning: Standard (EBGDAE)
Intro
E|-----------------------------------|
B|-----------------------------------|
G|-----------------------------------|
D|---------------------------4\3-----|
A|-22-5-22-5-3-4-5-22-5-22-5-2\1-3-2-|
E|-00-3-00-3-1-2-3-00-3-00-3-----1-0-|

Verses
E|-------------------------------|
B|-------------------------------|
G|-------------------------------|
D|----------------7\6\5\4\3------|
A|-2-3--2-3--2-3-/5\4\3\2\1--2-3-|
E|-0-1--0-1--0-1-------------0-1-|
PM * *  * *  * *             * * 

Chorus
E|-------------------------------------------------------------------|
B|-------------------------------------------------------------------|
G|-------------------------------------------------------------------|
D|---7---6---5--------5---7-----8----------10---9\7-----7-6-4--------|
A|---5---4-0-3-333----3---5-555-6-3-5-3----8----7\5-555-7-6-4-6-4----|
E|-0---0-----------55---0---------------55----0-------------------66-|
PM *   *           **   *               **    *                   ** 

Solo
E|-------------------------------12b/15p12----12h15p12----------------|
B|-----10----12b\----10h12-12p10-----------14----------14h17p14----14-|
G|-12b----12------12--------------------------------------------15----|
D|--------------------------------------------------------------------|
A|--------------------------------------------------------------------|
E|--------------------------------------------------------------------|

E|-------------------------------------------------------------18p17p15-|
B|----------------------------------------------------15h18p15----------|
G|-14h17p14----------------------------------16p15p13-------------------|
D|----------15h18p15----15h18p15----15h16h18----------------------------|
A|-------------------16----------16-------------------------------------|
E|----------------------------------------------------------------------|

E|-15h18p15h18p15h18p15h18p15----15h18p15h18p15h18p15h18p15----18b-18b-18b-|
B|----------------------------16----------------------------16-------------|
G|-------------------------------------------------------------------------|
D|-------------------------------------------------------------------------|
A|-------------------------------------------------------------------------|
E|-------------------------------------------------------------------------|

Verses
E|-------------------------------|
B|-------------------------------|
G|-------------------------------|
D|----------------7\6\5\4\3------|
A|-2-3--2-3--2-3-/5\4\3\2\1--2-3-|
E|-0-1--0-1--0-1-------------0-1-|
PM * *  * *  * *             * * 

Chorus
E|-------------------------------------------------------------------|
B|-------------------------------------------------------------------|
G|-------------------------------------------------------------------|
D|---7---6---5--------5---7-----8----------10---9\7-----7-6-4--------|
A|---5---4-0-3-333----3---5-555-6-3-5-3----8----7\5-555-7-6-4-6-4----|
E|-0---0-----------55---0---------------55----0-------------------66-|
PM *   *           **   *               **    *                   ** 
Tap to rate this tab
# A B C D E F G H I J K L M N O P Q R S T U V W X Y Z