Song name
# A B C D E F G H I J K L M N O P Q R S T U V W X Y Z

Washya - Tattoo Poisoning tab

-------------------------------------------------------------------------------
                        Tattoo Poisoning - Washya
-------------------------------------------------------------------------------
Tuning: Drop D (DADGBE)
Intro
E|-----------------------------------------|
B|-----------------------------------------|
G|-----------------------------------------|
D|-------3-------------3-------------3h5p3-|
A|-0-3-5---5---3-0-3-5---5-----0-3-5-------|
D|-----------5-------------3-2-------------|x3

Verses
E|-------------------------------------------------------------------------|
B|-------------------------------------------------------------------------|
G|-----------------------------------------------------------------5/7-----|
D|-----------------------------------------------------------------5/7-----|
A|----------5h6p5h6p5h6p5\3h5p3h5p3h5p3h5p3\2h3p2h3p2h3p2----------3/5-345-|
D|-00000000-----------------------------------------------00000000-----345-|
PM ********                                               ******** 

Chorus (Distortion Cranked and Loud)
E|---------------------------------------------------------|
B|---------------------------------------------------------|
G|---------------------------------------------------------|
D|---------------------------------------------------------|
A|-22-5-1-0-22-5-1-0-22-55-1-0-22-5-1-0-22-5-1-0-22-55-1-0-|
D|-22-5-1-0-22-5-1-0-22-55-1-0-22-5-1-0-22-5-1-0-22-55-1-0-|
Tap to rate this tab
# A B C D E F G H I J K L M N O P Q R S T U V W X Y Z