Song name
# A B C D E F G H I J K L M N O P Q R S T U V W X Y Z

Washya - Poison Arrow tab

-------------------------------------------------------------------------------
                   Poison Arrow - Washya
-------------------------------------------------------------------------------
Tunin: Drop D (EBGDAD)
Intro
E|-------------------------------------------------------------------|
B|-------------------------------------------------------------------|
G|-------------------------------------------------------------------|
D|--------------------------------3--------------3h5-----------------|
A|----3h5----3h5----3h5-----3h5h6------3h5-----3-----3333-5555-5-3-0-|
D|-00-----00-----00-----3h5---------00-----3h5-------3333-5555-5-3-0-|
PM **     **     **                 **         

Verses
E|---0-------0-----------|
B|-----0-------0---------|
G|-------0-------0-------|
D|-3-------5-------3h5-0-|
A|-3-------5-------3h5-0-|
D|-3-------5-------3h5-0-|

Chorus
E|--------------------------------------------------------------------------|
B|--------------------------------------------------------------------------|
G|--------------------------------------------------------------------------|
D|------------------------------------------3-------------------------------|
A|-----3h5h6----3h5----3h5----3h5-----3h5h6---6p5----3h5----3h5-----3-------|
D|-3h5-------00-----00-----00-----3h5-------------00-----00-----3h5---6p5p3-|
PM           **     **     **                     **     ** 

Lead
E|----------------------------------------------------------------------|
B|----------------------------------------------------------------------|
G|----------------------------------------------------------------------|
D|-------3-------------6p5p3---------3---3h5-/6p5p3---------3h5---------|
A|---3h5---5p3h5---3h5-------5---3h5---5------------5p3---5-----3-2-1b~-|
D|-0-------------0-------------0------------------------0---------------|
PM *             *             *                        * 
Tap to rate this tab
# A B C D E F G H I J K L M N O P Q R S T U V W X Y Z