Song name
# A B C D E F G H I J K L M N O P Q R S T U V W X Y Z

Washya - Mission Statement tab

-----------------------------------------------------------------------------
                      Mission Statement - Washya
-----------------------------------------------------------------------------
Tuning: Drop D (EBGDAD)
Intro
E|--------------------------------------|
B|--------------------------------------|
G|--------------------------------------|
D|-55555555/77777777-22222222-----------|
A|-33333333/55555555-00000000-3-5-3-5-3-|
D|----------------------------3-5-3-5-3-|
PM ***************** ******** 

Main Riff/Chorus
E|----------------------------------------------------|
B|----------------------------------------------------|
G|----------------------------------------------------|
D|-----5-555-----7-777---------3-333/5-5555-----------|
A|-333-3-333-555-5-555-1-3-1-0-1-111/3-3333-555/8-888-|
D|-333-------555-------1-3-1-0--------------555/8-888-|

Verses
E|-------------------------------------------------------------------------|
B|-------------------------------------------------------------------------|
G|-7-----7-7-77-77-----77-----7-7-77-77-----55-5-5-55-55-----55-5h6p5p3----|
D|---555-----------555----555-----------333--------------333------------55-|
A|---555-----------555----555-----------333--------------333------------55-|
D|---555-----------555----555-----------333--------------333------------55-|
PM   ***           ***    ***           ***              ***             
Tap to rate this tab
# A B C D E F G H I J K L M N O P Q R S T U V W X Y Z