Song name
# A B C D E F G H I J K L M N O P Q R S T U V W X Y Z

Washya - Pharaohs Tomb tab

-------------------------------------------------------------------------------
                       Pharaoh's Tomb - Washya
-------------------------------------------------------------------------------
Tuning: Drop D (EBGDAD)
Intro
E|-------------------|
B|-------------------|
G|-------------------|
D|-------------------|
A|-12\-2-5-2-8-7-5-2-|
D|-12\-2-5-2-8-7-5-2-|x3

Verses 1
E|-------------------------------------------|
B|-------------------------------------------|
G|-------------------------------------------|
D|-------------------------------------------|
A|-22222-22-2222222/5-5555555-8-7-55-7-5-7-2-|
D|-22222-22-2222222/5-5555555-8-7-55-7-5-7-2-|

Verses 2
E|-------------------------------------------|
B|-------------------------------------------|
G|-------------------------------------------|
D|-------------------------------------------|
A|-22222-22-2222222/5-5555555-8-7-55-7-5-7-2-|
D|-22222-22-2222222/5-5555555-8-7-55-7-5-7-2-|
PM ***** ** ********* ******* * * ** * * * * 

Chorus
E|--------------------------------------------------|
B|--------------------------------------------------|
G|--------------------------------------------------|
D|--------------------------------------------------|
A|------2222222222/555555555/8888888-7777-5-7-5-7\2-|
D|-//xx-2222222222/555555555/8888888-7777-5-7-5-7\2-|

Lead
E|-------------------------------------20b-17----19-20b-20b-21b~~-|
B|-17b-20b-15b----15h17b-20b-20b--/17b--------19------------------|
G|-------------17-------------------------------------------------|
D|----------------------------------------------------------------|
A|----------------------------------------------------------------|
E|----------------------------------------------------------------|
Tap to rate this tab
# A B C D E F G H I J K L M N O P Q R S T U V W X Y Z