Song name
# A B C D E F G H I J K L M N O P Q R S T U V W X Y Z

Washya - Black And White Pedestrian tab

-------------------------------------------------------------------------------
                Black And White Pedestrian - Washya
-------------------------------------------------------------------------------
Tuning: Drop D (DADGBE)
Intro
E|--------------------------------------|
B|--------------------------------------|
G|--------------------------------------|
D|--------------------------------------|
A|-6666-555-1111-333--6666-555-1111-333-|
D|-6666-555-1111-333--6666-555-1111-333-|

Verses
E|-------------------------------------------|
B|-------------------------------------------|
G|-------------------------------------------|
D|-------------------------------------------|
A|-0-2-0-3-2-0--0-2-0-3-2-0--0-2-0/666-55-11-|
D|-0-2-0-3-2-0--0-2-0-3-2-0--0-2-0/666-55-11-|
PM * * * * * *  * * * * * *  * * * 

Chorus
E|-----------------------------------------------------------|
B|-----------------------------------------------------------|
G|-----------------------------------------------------------|
D|-----------------------------------------------------------|
A|-666666666-11111111-555555555-22222222-333333333/65-65-653-|
D|-666666666-11111111-555555555-22222222-333333333/65-65-653-|

Solo (Very fast)
E|----------------------------------------------------------------------8~-|
B|-5b~-5---3-5---3-5---3/6---4-6---4-6---4/7---5-7---5/8---6/9---7/10------|
G|-------4-----4-----4-----5-----5-----5-----6-----6-----7-----8------9----|
D|-------------------------------------------------------------------------|
A|-------------------------------------------------------------------------|
D|-------------------------------------------------------------------------|
Tap to rate this tab
# A B C D E F G H I J K L M N O P Q R S T U V W X Y Z