Song name
# A B C D E F G H I J K L M N O P Q R S T U V W X Y Z

Washya - Dry Eyes tab

-----------------------------------------------------------------------------
                        Dry Eyes - Washya
-----------------------------------------------------------------------------
Tuning: Drop D
Intro
E|-5--3--8--9--5-|
B|-8--6--11-12-8-|
G|-7--5--10-11-7-|
D|-5--3--8--9--5-|
A|-5--3--8--9--5-|
D|-5--3--8--9--5-|

Part 2
E|-7-|   |-5-|   |-5-|   |-7-|
B|-7-|   |-5-|   |-5-|   |-7-|
G|-7-|   |-5-|   |-5-|   |-7-|
D|-7-|   |-5-|   |-3-|   |-5-|
A|-5-|   |-3-|   |-3-|   |-5-|
D|---|x8 |---|x8 |-3-|x8 |-5-|x8
PM *       *       *       * 

Chorus (HEAVY DISTORTION)
E|---------------------------------7777-3333-------------|
B|---------------------------------8888-4444-------------|
G|-7-7777/9-999-99\5-555-55-7-7777-9999-5555-5-555/7-777-|
D|-5-5555/7-777-77\3-333-33-5-5555-9999-5555-3-333/5-555-|
A|-5-5555/7-777-77\3-333-33-5-5555-7777-3333-3-333/5-555-|
D|-5-5555/7-777-77\3-333-33-5-5555-----------3-333/5-555-|
Tap to rate this tab
# A B C D E F G H I J K L M N O P Q R S T U V W X Y Z