Song name
# A B C D E F G H I J K L M N O P Q R S T U V W X Y Z

Washya - Holy Warden tab

-----------------------------------------------------------------------------
                             Holy Warden - Washya
-----------------------------------------------------------------------------
Tuning: Standard (EBGDAE)
Intro
E|-----------------------------------------|
B|-----------------------------------------|
G|-----------------------------------------|
D|-----------4-----------5-----------3-----|
A|-----------2-----------3-----------1-3-2-|
E|-222222222---222222222---222222222---1-0-|
PM *********   *********   ********* 

Verses
E|-------------------------------------------------------------------------|
B|-----------------------------------------------4h5p4---------------------|
G|---------------------4h5p4-----------------------------------------------|
D|-3------3------3-----------3------3------3-----------3------3------3-----|
A|-1-3-2--1-3-2--1-3-2-------1-3-2--1-3-2--1-3-2-------1-3-2--1-3-2--1-3-2-|
E|---1-0----1-0----1-0---------1-0----1-0----1-0---------1-0----1-0----1-0-|
PM * * *  * * *  * * *       * * *  * * *  * * *       * * *  * * *  * * * 

E|----------------------------|
B|----------------------------|
G|-4h5p4----------------------|
D|-------3--------------------|
A|-------1-3-2--3-5-3-6-5-3-2-|
E|---------1-0--1-3-1-4-3-1-0-|
PM       * * *  * * * * * *  

Chorus
E|----------------------------------------------------------------------|
B|----------------------------------------------------------------------|
G|-9---7---5----------5---3---1------------------9---8---7---6----------|
D|---7---7---7-5--------3---3---3-1------5-4/777---7---7---7---7-5------|
A|---------------7------------------3----3-3/555-------------------7----|
E|-----------------7~-----------------3~-----------------------------7~-|

E|---------------|
B|---------------|
G|----------777\-|
D|-777-5-5--777\-|
A|-777-5-5--555\-|
E|-555-3-3/------|

Verses
E|-------------------------------------------------------------------------|
B|-----------------------------------------------4h5p4---------------------|
G|---------------------4h5p4-----------------------------------------------|
D|-3------3------3-----------3------3------3-----------3------3------3-----|
A|-1-3-2--1-3-2--1-3-2-------1-3-2--1-3-2--1-3-2-------1-3-2--1-3-2--1-3-2-|
E|---1-0----1-0----1-0---------1-0----1-0----1-0---------1-0----1-0----1-0-|
PM * * *  * * *  * * *       * * *  * * *  * * *       * * *  * * *  * * * 

E|----------------------------|
B|----------------------------|
G|-4h5p4----------------------|
D|-------3--------------------|
A|-------1-3-2--3-5-3-6-5-3-2-|
E|---------1-0--1-3-1-4-3-1-0-|
PM       * * *  * * * * * *  
Tap to rate this tab
# A B C D E F G H I J K L M N O P Q R S T U V W X Y Z