Song name
# A B C D E F G H I J K L M N O P Q R S T U V W X Y Z

Washya - Operation Hour tab

-----------------------------------------------------------------------------
                     Operation Hour - Washya
-----------------------------------------------------------------------------
Tuning: Drop C (DAFCGC)
Intro 
D|-------18p15----------18p17p15----17p15-------------------------12~~~--|
A|-17bv~-------17h18bv~----------18-------16----------------14h15--------|
F|-------------------------------------------17p15----15h16--------------|
C|-------------------------------------------------17--------------------|
G|-----------------------------------------------------------------------|
C|-----------------------------------------------------------------------|x4

Main Riff/Chorus
D|----------------------------------------------------------------|
A|----------------------------------------------------------------|
F|----------------------------------------------------------------|
C|-7\-------------------------------------------------------------|
G|-7\--7777-7/8-7/8-777777-7/8\7-5-7777-77-7/8-7/8-777777-7/8\7-5-|
C|-7\--7777-7/8-7/8-777777-7/8\7-5-7777-77-7/8-7/8-777777-7/8\7-5-|
PM     ****         ****           ***             ****  


D|-----------------------|
A|-----------------------|
F|--------------------7\-|
C|--------------------7\-|
G|-5-55-7-77-8-88-7-5-5\-|
C|-5-55-7-77-8-88-7-5----|
PM *    *    *      


Verses
D|-----------------------------------------------|
A|-----------------------------------------------|
F|--------------7----------------------9---------|
C|-------4*---7---7---8*--------6*---9---9---10*-|
G|---2/5----0-------5------/8-5----0-------7-----|
C|-0---------------------0-----------------------|

Main Riff/Chorus
D|----------------------------------------------------------------|
A|----------------------------------------------------------------|
F|----------------------------------------------------------------|
C|-7\-------------------------------------------------------------|
G|-7\--7777-7/8-7/8-777777-7/8\7-5-7777-77-7/8-7/8-777777-7/8\7-5-|
C|-7\--7777-7/8-7/8-777777-7/8\7-5-7777-77-7/8-7/8-777777-7/8\7-5-|
PM     ****         ****           ***             ****  


D|-----------------------|
A|-----------------------|
F|--------------------7\-|
C|--------------------7\-|
G|-5-55-7-77-8-88-7-5-5\-|
C|-5-55-7-77-8-88-7-5----|
PM *    *    *      


Tap to rate this tab
# A B C D E F G H I J K L M N O P Q R S T U V W X Y Z