Song name
# A B C D E F G H I J K L M N O P Q R S T U V W X Y Z

Washya - Efishent tab

-------------------------------------------------------------------------------
              EFishEnt - Washya
-------------------------------------------------------------------------------
Tuning: Standard (EBGDAE)
Intro/Chorus
E|--------------------------------------------------------|
B|--------------------------------------------------------|
G|--------------------------------------------------------|
D|-555-5-5-5/777---555-5-5-5/777/10-555-5-5-5/777---------|
A|-333-3-3-3/555-7-333-3-3-3/555/8--333-3-3-3/555-7-6-5-2-|
E|---------------5--------------------------------5-4-3-0-|
PM                                                * * * * 

Verses
E|--------------------------------------------|
B|--------------------------------------------|
G|--------------------------------------------|
D|-9999-------9999-------9999-77/11-9999------|
A|-7777-88-7--7777-88-7--7777-55/9--7777-88-7-|
E|------66-5-------66-5------------------66-5-|

Solo
E|-----------------------------------------------11h14----11h14p11-10-10-10-|
B|-----------------------------10h12p10h12p10h12-------12----------12-12-12-|
G|----7-10----7-10----7-10/-12----------------------------------------------|
D|-9b------9b------9b-------------------------------------------------------|
A|--------------------------------------------------------------------------|
E|--------------------------------------------------------------------------|
Tap to rate this tab
# A B C D E F G H I J K L M N O P Q R S T U V W X Y Z