Song name
# A B C D E F G H I J K L M N O P Q R S T U V W X Y Z

Washya - Priced Too Sell tab

-----------------------------------------------------------------------------
          Priced Too Sell - Washya
-----------------------------------------------------------------------------
Tuning: Drop D (DADGBE)
Intro
E|-----------------------------------------------|
B|-----------------------------------------------|
G|-----------------------------------------------|
D|----------5-3-2-0----------2-3-5-3-2-----------|
A|----------5-3-2-0----------2-3-5-3-2-0-2-3-2-0-|
D|-22222222---------22222222-----------0-2-3-2-0-|
PM ********         ******** 

Verses
E|-------------------------------------------------------------|
B|-------------------------------------------------------------|
G|-------------------------------------------------------------|
D|-------------------------------------------------3h4p3-------|
A|---------3h5---------3h5---------3h5---------3h5-------5p3h5-|
D|-0-0-0-0-----0-0-0-0-----0-0-0-0-----0-0-0-0-----------------|
PM * * * *     * * * *     * * * *     * * * * 

Chorus
E|------------------------------------------------------------------|
B|------------------------------------------------------------------|
G|------------------------------------------------------------------|
D|--------------5-55--------3-33-10\9--------------------5-55-------|
A|-5-555------3-3-33------1-1-11-8-\7-77887-5-55-------3-3-33-3\2\0-|
D|-5-555-33h5--------11h3-------------77887-5-55--33h5--------3\2\0-|
PM       **** *      **** *                       **** * 
Tap to rate this tab
 
# A B C D E F G H I J K L M N O P Q R S T U V W X Y Z