Song name
# A B C D E F G H I J K L M N O P Q R S T U V W X Y Z

Washya - Stolen My Pulse tab

-----------------------------------------------------------------------------
               Stolen My Pulse - Washya
-----------------------------------------------------------------------------
Tuning: Standard (EBGDAE)
Intro
E|----------------|
B|----------------|
G|--10~--8~--5/6~-|
D|----------------|
A|-/8~---6~--3/4~-|
E|----------------|

Intro
E|----------------------------------------------------------|
B|----------------------------------------------------------|
G|----------------------------------------------------------|
D|-------------------------------------------------3--------|
A|-----1-3-2-22------1-3-2-22------1-3-2-22--------1-333-22-|
E|-1h3---1-0-00--1h3---1-0-00--1h3---1-0-00--1-2-3---111-00-|
PM *** *         *** *         *** *         * * * 

Just before chorus
E|----------------------------------------------------------------------|
B|-------------------------------4h5p4-------4h5p4-----5*---------------|
G|-----5-5h7p5-----5-5h7p5-----5-----------5----------------------------|
D|-7-6-5-------7-6-5-------7-6-5-------7-6-5-------7-6------------------|
A|-7-6---------7-6---------7-6---------7-6---------7-6----8-7-6-5-4-3-2-|
E|--------------------------------------------------------6-5-4-3-2-1-0-|
PM                                                        * * * * * * 

Chorus
E|-----------------------------------------8--|
B|-10------9-9------------9------9---------8--|
G|------10----------10----------------10---9--|
D|----8----------10----10-----10---10----8-10-|
A|-------------8------------8--------------10-|
E|-----------------------------------------8--|
PM ** * ** * * * ** ** ** * * ** * ** ** * 
Tap to rate this tab
 
# A B C D E F G H I J K L M N O P Q R S T U V W X Y Z