Song name
# A B C D E F G H I J K L M N O P Q R S T U V W X Y Z

Washya - Doped tab

-------------------------------------------------------------------------------
                             Doped - Washya
-------------------------------------------------------------------------------
Tuning: Drop C (DAFCGC)
Intro/verses
D|----------------------------------------------------------------------------|
A|----------------------------------------------------------------------------|
F|----------------------------------------------------------------------------|
C|-----7-----7-----7-----5----5-------5-------5-----8-----8-----5---5-------5-|
G|---5-----5-----5-----7--------7---7-----5-7-----5-----5-----8-------8---8---|
C|-5-----5-----5-----5-----5------5-----5-------5-----5-----5-----5-----5-----|
PM * *     *   * *         *    * *     * *       * *       * *   *     *

D|-------------------|
A|-------------------|
F|-------------------|
C|-------5-888-88-77-|
G|---5-8---555-55-55-|
C|-5-------555-55-55-|
PM * * 

Chorus
D|----------------------------------------------------------------------|
A|----------------------------------------------------------------------|
F|------------------------------------------5555/888--------------------|
C|-77777777/1010101010101010-3-3333-1-1111-----------666/101010-7-777-3-|
G|-55555555/8-8-8-8-8-8-8-8--3-3333-1-1111-/3333/666-666/101010-7-777-3-|
C|-55555555/8-8-8-8-8-8-8-8--3-3333-1-1111-----------666/101010-7-777-3-|
PM                             ****   ****                        *** 
Tap to rate this tab
 
# A B C D E F G H I J K L M N O P Q R S T U V W X Y Z