Song name
# A B C D E F G H I J K L M N O P Q R S T U V W X Y Z

Washya - Cronin 05 tab

-------------------------------------------------------------------------------
                 Cronin 0.5 - washya
-------------------------------------------------------------------------------
Tuning: Standard (EBGDAE) SWEET STARTING RIFF
Intro
E|----------------------------------------------|
B|----------------------------------------------|
G|----------------------------------------------|
D|----------------------------------------------|
A|---------------5\4-5\4-5\4--------5\4-5\4-5\4-|
E|-//xx\\-023202-3\2-3\2-3\2-023202-3\2-3\2-3\2-|
PM        ******             ****** 

Verses
E|-11111/44444/77777-|
B|-22222/55555/88888-|
G|-33333/66666/99999-|
D|-33333/66666/99999-|
A|-------------------|
E|-------------------|

Chorus
E|-------------------------------------------------|
B|-------------------------------------------------|
G|-------------------------------------------------|
D|-5\4-5\4-5\4-------------5\4-5\4-5\4-------------|
A|-3\2-3\2-3\2-----------2-3\2-3\2-3\2-----------2-|
E|-------------2-3-5-3-2-0-------------2-3-5-3-2-0-|
PM             * * * * *               * * * * * 
Tap to rate this tab
# A B C D E F G H I J K L M N O P Q R S T U V W X Y Z