Song name
# A B C D E F G H I J K L M N O P Q R S T U V W X Y Z

Washya - Time Too Fuck It tab

------------------------------------------------------------------------------
          Time Too Fuck It!! - Washya
------------------------------------------------------------------------------
Tuning: Drop D (DADGBE)
Intro
E|------------------------------|
B|------------------------------|
G|------------------------------|
D|-88-8\7---88-8\7---88-8\7-----|
A|-66-6\5-3-66-6\5-3-66-6\5-3-0-|
D|--------3--------3--------3-0-|

Verses
E|--------------------------------|
B|--------------------------------|
G|--------------------------------|
D|--------------------------------|
A|-55-3-2-1--55-3-2-1--55-3-2-1-0-|
D|-55-3-2-1--55-3-2-1--55-3-2-1-0-|
PM ** * * *  ** * * *  ** * * * * 

Chorus
E|-----------------------------------------------------------|
B|-----------------------------------------------------------|
G|-----------------------------------------------------------|
D|-55-------55-------55---------33-------33-------33---------|
A|-33-6-5-3-33-6-5-3-33-6-5-3-0-11-4-3-1-11-4-3-1-11-4-3-1-0-|
D|----6-5-3----6-5-3----6-5-3-0----4-3-1----4-3-1----4-3-1-0-|
Tap to rate this tab
# A B C D E F G H I J K L M N O P Q R S T U V W X Y Z