Song name
# A B C D E F G H I J K L M N O P Q R S T U V W X Y Z

Washya - Hollow Ween tab

-----------------------------------------------------------------------------
                  Hollow Ween - Washya
-----------------------------------------------------------------------------
Tuning: Drop D (DADGBE)
Intro
E|-----------------------------------|
B|-----------------------------------|
G|-----------------------------------|
D|------------------------------8888-|
A|-0-0-3-0-3-2-0-2-0-3-0-3-2-0-/6666-|
D|-0-0-3-0-3-2-0-2-0-3-0-3-2-0-------|x2

Interlude
E|-----------------------------------------------------|
B|-----------------------------------------------------|
G|-----------10*---------10*---------------------------|
D|---88888-8-----88888-8-------------------------------|
A|-/-66666-6-----66666-6-----8888888888-888-888-8~~~~\-|
D|-/---------------------------------------------------|

Verses
E|---------------------------|
B|---------------------------|
G|---------------------------|
D|---------------------------|
A|-0302320--0302320--0302320-|
D|-0302320--0302320--0302320-|

Interlude
E|-----------------------------------------------------|
B|-----------------------------------------------------|
G|-----------10*---------10*---------------------------|
D|---88888-8-----88888-8-------------------------------|
A|-/-66666-6-----66666-6-----8888888888-888-888-8~~~~\-|
D|-/---------------------------------------------------|

Verses
E|---------------------------|
B|---------------------------|
G|---------------------------|
D|---------------------------|
A|-0302320--0302320--0302320-|
D|-0302320--0302320--0302320-|

Chorus
E|----------------------------------------------------------------------|
B|----------------------------------------------------------------------|
G|----------------------------------------------------------------------|
D|-----8\7-----------8\7------------------------------------------------|
A|-3-0-6\5-0-00--3-0-6\5-0-00--3-000-3\2-3-000-3\2-3-000-3\2/3/88888888-|
D|-3-0-----0-00--3-0-----0-00--3-000-3\2-3-000-3\2-3-000-3\2/3/88888888-|

Ending/outro
E|-------------------------------------------------------|
B|-------------------------------------------------------|
G|-------------------------------------------------------|
D|-------------------------------------------------------|
A|-8-7-6-7-6-5-8-7-6-7-6-5-6-5-4-5-4-3-0-3-0-2-0-2-3-2-0-|
D|-8-7-6-7-6-5-8-7-6-7-6-5-6-5-4-5-4-3-0-3-0-2-0-2-3-2-0-|
Tap to rate this tab
# A B C D E F G H I J K L M N O P Q R S T U V W X Y Z