Song name
# A B C D E F G H I J K L M N O P Q R S T U V W X Y Z

Washya - Balding Matters tab

-------------------------------------------------------------------------------
             Balding Matters - Washya (Original Grinspoon)
-------------------------------------------------------------------------------
Tuning: Drop D (DADGBE)
Intro
E|---------------------------------------------|
B|---------------------------------------------|
G|---------------------------------------------|
D|---------------------------------------------|
A|--x-0-3-5-0-3-5-0-3-5-0-3--0-3-5-0-5-5/88888-|
D|--x-0-3-5-0-3-5-0-3-5-0-3--0-3-5-0-3-5/88888-|

Verses "since when....."

E|---------------------------------------|
B|---------------------------------------|
G|---------------------------------------|
D|---------------------------------------|
A|-0-3-5-0-3-5--0-3-5-0-3--0-3-5-0-3-5-0-|
E|-0-3-5-0-3-5--0-3-5-0-3--0-3-5-0-3-5-0-|

Chorus "balding matters......"

E|----------------------------------|
B|----------------------------------|
G|----------------------------------|
D|----------------------------------|
A|--121212-10-10-10-121212-10-10-10-|
D|-/121212-10-10-10-121212-10-10-10-|

Interlude
E|-2~-|
B|-3~-|
G|-2~-|
D|-0~-|
A|-0~-|
D|-0~-|

Interlude 2 (w/dist)
E|------------------------------------------------------------|
B|------------------------------------------------------------|
G|------------------------------------------------------------|
D|------------------------------------------------------------|
A|-3-1-0-1-3-1-0-11-0--3-1-0-1-3-1-0-11-0--3-1-0-1-3-1-0-11-0-|
D|-3-1-0-1-3-1-0-11-0--3-1-0-1-3-1-0-11-0--3-1-0-1-3-1-0-11-0-|

Enjoy
Tabbed By Washya
Tap to rate this tab
 
# A B C D E F G H I J K L M N O P Q R S T U V W X Y Z