Song name
# A B C D E F G H I J K L M N O P Q R S T U V W X Y Z

Washya - Medic Foundation tab

-------------------------------------------------------------------------------
                   medic Foundation - Washya
-------------------------------------------------------------------------------
Tuning: Drop D (DADGBE)
Intro
E|---------------------------------------------------------------|
B|---------------------------------------------------------------|
G|---------------------------------------------------------------|
D|------------3---2------------------------5---------------------|
A|----3---5-----------3h5p3h5p3h5p3----3-------3p2p0-------------|
D|-00---0---0---0---0---------------00---0---0-------6-0-5-0-3-0-|
PM **   *   *   *   *               **   *   *         *   *   * 

Verses
E|-------------------------------------|---------------|
B|-------------------------------------|-----4---------|
G|-------------------------------------|-------5-----3-|
D|-----3-----5-----1-----3-----5-----8-|---5-------3---|
A|---3-----5-----1-----3-----5-----8---|-3-------1-----|
D|-3-----5-----1-----3-----5-----8-----|---------------|
PM * *   * *   * *   * *   * *   * *  x2              x1

Chorus
E|-------------------------------------------------------------------|
B|-------------------------------------------------------------------|
G|-------------------------------------------------------------------|
D|-5555555/7777777-------------------------5555555-------------------|
A|-3333333/5555555-5555555/8888888\1111111-3333333-5555555-111-11-11-|
D|-----------------5555555/8888888\1111111---------5555555-111-11-11-|
Tap to rate this tab
 
# A B C D E F G H I J K L M N O P Q R S T U V W X Y Z