Song name
# A B C D E F G H I J K L M N O P Q R S T U V W X Y Z

Washya - Suicide Knockout tab

-----------------------------------------------------------------------------
                    Suicide Knockout - Washya
-----------------------------------------------------------------------------
Tuning: Drop C (DAFCGC)
Intro
D|-----------8---------------------|   |--------------------|
A|----------------8----------------|   |--------------------|
F|-------------8-------3/5-5/6\5-3-|   |----------7-7\5/8\7-|
C|------------------8--3/5-5/6\5-3-|   |----------7-7\5/8\7-|
G|---------------------1/3-3/4\3-1-|   |----------5-5\3/6\5-|
C|-222222222-----------------------|x3 |-22222222-----------|
PM *********                          PM ********

Intro continued
D|---------------------------|
A|--------------------9------|
F|-2-3/7-2-3/9\\--------10-9-|
C|-2-3/7-2-3/9\\----7--------|
G|-0-1/5-0-1/7\\-00----------|
C|---------------00----------|

Verses
D|----------------------------------------------------------------------|
A|----------------------------------------------------------------------|
F|----------------------------------------------------------------------|
C|--------------------------------------------------------------6666666-|
G|--------55555555-666666-555555-----------------22222223333333---------|
C|-222222------------------------4444444-2222222------------------------|
PM ****** ******** ****** ****** ******* ******* ************** *******

D|-----------------------------------------------------------|
A|-----------------------------------------------------------|
F|---------------9-8-----------------------------------------|
C|-555555--------9-8---------------------------------3\2/6\5-|
G|--------777777-7-6---------44444442222222----------3\2/6\5-|
C|-------------------6666666----------------22222222-3\2/6\5-|
PM ****** ******     ******* ************** ******** 

Chorus
D|------------------------------------------------------------------------|
A|----------------------10-9-7--------------------------------------------|
F|--77-5-555-77-9-999-----------------------8*------------77--------------|
C|--77-5-555-77-9-999-7--------9-7-66h7-5/7----55-8-3-5-5----5------8-7-5-|
G|--55-3-333-55-7-777--------------66h7-5/7----55-8-3-5--------77-5-8-7-5-|
C|---------------------------------------------55-8-3-5-------------8-7-5-|
PM                                                      * ** * ** * 
Tap to rate this tab
# A B C D E F G H I J K L M N O P Q R S T U V W X Y Z