Song name
# A B C D E F G H I J K L M N O P Q R S T U V W X Y Z

Washya - Legionaire tab

-----------------------------------------------------------------------------
                           Legionaire - Washya
-----------------------------------------------------------------------------
Tuning: Drop D (EBGDAD)
Intro
E|---------------------------------------|
B|---------------------------------------|
G|---------------------------------------|
D|---------------------------------------|
A|---------------------------------------|
D|-00-011-0-33-0-11-0-33-3-1-0-1-33-0-11-|
PM ** *** * ** * ** * ** * * * * ** * ** 

Main Riff
E|--------------------------------------------------------------------------|
B|--------------------------------------------------------------------------|
G|--------------------------------------------------------------------------|
D|--------------------------------------------------------------------------|
A|-00-0-1-3-1-0-1-3-00-0-1-3-1-0-3-5-0-0-1-3-1-0-1-3-0-00-3-1-0-1-3-0-3-5-0-|
D|-00-0-1-3-1-0-1-3-00-0-1-3-1-0-3-5-0-0-1-3-1-0-1-3-0-00-3-1-0-1-3-0-3-5-0-|

Verses
E|---------------------------------------------------|
B|---------------------------------------------------|
G|---------------------------------------------------|
D|---------------------------------------------------|
A|-----------1-3-------------1-3---------------------|
D|-0-1-3-1-0-----3-0-1-3-1-0-----3-1-0-1-3-1-0-3-5-0-|
PM * * * * *     * * * * * *     * * * * * * * * * * 

Solo
E|-11b~-----------------------11b~-------------------10b~/15p13p10----------|
B|-14b~--------------------12-14b~-------12----------12b~----------15p13p10-|
G|----------------10h12h13---------12h14----14p12h14------------------------|
D|-------------11-----------------------------------------------------------|
A|-----9h11h12--------------------------------------------------------------|
D|--------------------------------------------------------------------------|

E|-15p13p10----------15p13p10h15p13p10-15b~-------------------13~--|
B|----------15p13p10-------------------17b~-------17p15p13---------|
G|------------------------------------------13h15----------15------|
D|-----------------------------------------------------------------|
A|-----------------------------------------------------------------|
D|-----------------------------------------------------------------|

E|-/18h19p18h19p18h19p18\16h18p16h18p16h18p16\14h15-------------------|
B|--------------------------------------------------16p15p14----------|
G|-----------------------------------------------------------15p13p12-|
D|--------------------------------------------------------------------|
A|--------------------------------------------------------------------|
D|--------------------------------------------------------------------|

E|-----------------------18p15----15h18p15h18p15h18p15h18/20p15h19p15-------|
B|-17/18~----15-------15-------15-------------------------------------17h18-|
G|--------18----18p17-------------------------------------------------------|
D|--------------------------------------------------------------------------|
A|--------------------------------------------------------------------------|
D|--------------------------------------------------------------------------|

E|-15h20p15h19p15-------15h20p15h19p15-------22----22p20-------22----22p20-|
B|----------------18p17----------------18p17----22-------21p19----22-------|
G|-------------------------------------------------------------------------|
D|-------------------------------------------------------------------------|
A|-------------------------------------------------------------------------|
D|-------------------------------------------------------------------------|

E|-------------------------------20p19/22b-22b-22b~~-|
B|-21p19-------------21----19-21-------22b-22b-22b~~-|
G|-------20----20p19----20---------------------------|
D|----------21---------------------------------------|
A|---------------------------------------------------|
D|---------------------------------------------------|

Main Riff
E|--------------------------------------------------------------------------|
B|--------------------------------------------------------------------------|
G|--------------------------------------------------------------------------|
D|--------------------------------------------------------------------------|
A|-00-0-1-3-1-0-1-3-00-0-1-3-1-0-3-5-0-0-1-3-1-0-1-3-0-00-3-1-0-1-3-0-3-5-0-|
D|-00-0-1-3-1-0-1-3-00-0-1-3-1-0-3-5-0-0-1-3-1-0-1-3-0-00-3-1-0-1-3-0-3-5-0-|
Tap to rate this tab
 
# A B C D E F G H I J K L M N O P Q R S T U V W X Y Z