Song name
# A B C D E F G H I J K L M N O P Q R S T U V W X Y Z

Washya - Certain Liasons tab

-------------------------------------------------------------------------------
                           Certain Liasons - Washya
-------------------------------------------------------------------------------
Tuning: Drop D (DADGBE)
Intro 
E|---------------------------------|
B|---------------------------------|
G|---------------------------------|
D|---------------------------------|
A|----------------------------22))-|
D|-00-00-00-00-00-00-00-00-00-22))-|x3
PM ** ** ** ** ** ** ** ** ** 

Verses
E|------------------------------------------|
B|------------------------------------------|
G|------------------------------------------|
D|------------------------------------------|
A|-5------5------5------5-----3h5-----3h5))-|
D|---0000---0000---0000---5h7-----5h7-------|
PM   ****   ****   ****      

Chorus
E|-------------------------------------------------------------------------|
B|-------------------------------------------------------------------------|
G|-------------------------------------------------------------------------|
D|------------5/7-----5/7--------------------------3/5-----3/5-----3/5-----|
A|--------3/5-3/5-3/5-3/5-3/5--1/3-5/6-1/3-5/6-1/3-1/3-6\5-1/3-6\5-1/3-6\5-|
D|-//xx\\-3/5-----3/5-----3/5--1/3-5/6-1/3-5/6-1/3-----6\5-----6\5-----6\5-|

E|-----|
B|-----|
G|-----|
D|-----|
A|-1-0-|
D|-1-0-|

Legend : //xx\\ - Pickslide/Pickscrape
/ - slide up
\ - slide down
)) - Delay
PM * - Palm Mute
Tap to rate this tab
# A B C D E F G H I J K L M N O P Q R S T U V W X Y Z