Song name
# A B C D E F G H I J K L M N O P Q R S T U V W X Y Z

Washya - The Man tab

-----------------------------------------------------------------------------
                             The Man - Washya
-----------------------------------------------------------------------------
Tuning: Drop D (DADGBE)
Intro
E|-------------------------------------|
B|-------------------------------------|
G|-------------------------------------|
D|-555---------------777---------------|
A|-333-55-5-2/3-2/33-555-77-7-4/5-4/55-|
D|-----55-5-2/3-2/33-----77-7-4/5-4/55-|

Main Riff
E|-------------------------------------------------------|
B|-------------------------------------------------------|
G|-------------------------------------------------------|
D|-------33-------------55/7--------55--------------33/5-|
A|-5-3-0----5-3---5-3-0-33/5--5-3-0----5-3-5--5-3-0-11/3-|
D|--------------5--------------------------5-------------|

Verses
E|------------------------------------------------------------------|
B|------------------------------------------------------------------|
G|------------------------------------------------------------------|
D|-55-5-5-55-55--------------55-5-5-55-55\33-3-3-33-33--------------|
A|-33-3-3-33-33-33-3-3-33-33-33-3-3-33-33\11-1-1-11-11-11-1-1-11-11-|
D|--------------33-3-3-33-33---------------------------11-1-1-11-11-|
PM *  *      **    *   *  **    *    *    ** *   *   *  *     ** 

E|---------------------------|
B|---------------------------|
G|---------------------------|
D|-33-3-3-33-33--------------|
A|-11-1-1-11-11-11-1-1-11-11-|
D|--------------11-1-1-11-11-|
PM      *  *         * ** 
Tap to rate this tab
# A B C D E F G H I J K L M N O P Q R S T U V W X Y Z