Song name
# A B C D E F G H I J K L M N O P Q R S T U V W X Y Z

Washya - Imperfection tab

-------------------------------------------------------------------------------
                            Imperfection - Washya
-------------------------------------------------------------------------------
Tuning: Drop D (DADGBE)
Intro (W/Dist)
E|---------------------------------------------|
B|---------------------------------------------|
G|---------------------------------------------|
D|---------------------------------------------|
A|-0-1-3-0-3-4-0-1-3-0-3-5-3-0-1-3-0-5-4-0-1-3-|
D|-0-1-3-0-3-4-0-1-3-0-3-5-3-0-1-3-0-5-4-0-1-3-|x2
PM * * * * * * * * * * * * * * * * * * * * * * 

Verses
E|-------------------------------------------------------------------------|
B|-------------------------------------------------------------------------|
G|-------------------------------------------------------------------------|
D|-------------------------------------------------------------------------|
A|-------1-----------1-----------1-----------2-3-----------2-3-------1-3-0-|
D|-0-1-3---00--0-1-3---00--0-1-3---00--0-1-3-----00--0-1-3-----00--0-1-3-0-|

Chorus
E|-------------------------------------------------------------------------|
B|-------------------------------------------------------------------------|
G|-------7b-7b--------3b-3b------------------------------------------------|
D|-------7b-7b--------3b-3b------------------------------------------------|
A|-0-000-5b-5b-5--555-3b-3b-1-111-4-444-4-44/7-777-7-77h8\1-111-4-444-4-44-|
D|-0-000-------5--555-------1-111-4-444-4-44/7-777-7-77h8\1-111-4-444-4-44-|

E|-----------------------------------------------|
B|-----------------------------------------------|
G|-----------------------------------------------|
D|-----------------------------------------------|
A|-7-777-7-77h8\1-111-4-444-4-44/7-777-7-77h8\\\-|
D|-7-777-7-77h8\1-111-4-444-4-44/7-777-7-77h8\\\-|
Tap to rate this tab
# A B C D E F G H I J K L M N O P Q R S T U V W X Y Z