Song name
# A B C D E F G H I J K L M N O P Q R S T U V W X Y Z

Washya - Grisling Howler tab

-----------------------------------------------------------------------------
                       Grisling Howler - Washya
-----------------------------------------------------------------------------
Tuning: B Standard (BEADGBE) 7 string
Intro
E|-----------------------------------------------------------------|
B|-----------------------------------------------------------------|
G|-----------------------------------------------------------------|
D|-----------------------------------------------------------------|
A|-------------------6-----------------------6-------3-------------|
E|-------6-5-3---------3-5-------6-3-5---------5-3-5---6-5---------|
B|-0-0-0-------0-0-0-------0-0-0-------0-0-0---------------3-6-5-6-|
PM * * *       * * *       * * *       * * *   

Part 2
Verses
E|---------------------------------------------------------------|
B|---------------------------------------------------------------|
G|---------------------------------------------------------------|
D|---------------------------------------------------------------|
A|---------------------------------------------------------3-----|
E|-2222-2-2-2-2222--2222-2-2-2-2222--2222-2-2-2-2222---------5-6-|
B|-0000-0-0-0-0000--0000-0-0-0-0000--0000-0-0-0-0000-3-5-6-------|
PM **** * * * ****  **** * * * ****  **** * * * **** 

Part 2
Verses continued 
E|---------------------------------------|
B|---------------------------------------|
G|---------------------------------------|
D|-----4h5p4---4h6-----------------------|
A|-----------6-----7-6-4---4-------------|
E|-2-2-------------------6---6-5-4-------|
B|-0-0-----------------------------7-6-4-|
PM * * 

Chorus
E|--------------------------------------------------------------------|
B|--------------------------------------------------------------------|
G|--------------------------------------------------------------------|
D|-------2h3p2---2h4--------------------------------------------------|
A|-------------4-----5-4-2---2----------------------------------------|
E|-------------------------4---4-3-2-------222----222----5-4-3/787/10-|
B|-0h3p0-----------------------------5-4-2-000-3*-000-3*-3-2-1/565/8--|
PM                                         ***    ***    * * * *****     
Tap to rate this tab
# A B C D E F G H I J K L M N O P Q R S T U V W X Y Z