Song name
# A B C D E F G H I J K L M N O P Q R S T U V W X Y Z

Washya - Scapegoat tab

-------------------------------------------------------------------------------
                         Scapegoat - Washya
-------------------------------------------------------------------------------
Tuning: Standard (EBGDAE)
Intro
E|-----------------------------|
B|-----------------------------|
G|-----------------------------|
D|-----------------------------|
A|-2-(2)-2-(2)-4/5-(5)-5-(5)-2-|
E|-0-(0)-0-(0)-2/3-(3)-3-(3)-0-|

Verses
E|---------------------------------------------------------|
B|---------------------------------------------------------|
G|---------------------------------------------------------|
D|---------------------------------------------------------|
A|-222222222-4/5-222222222-4/5-7/8-4/5-222222222-8-7-5-7-2-|
E|-000000000-2/3-000000000-2/3-5/6-2/3-000000000-6-5-3-5-0-|
PM *********     *********             ********* 

Chorus
E|----------------------------------------------------------------------|
B|----------------------------------------------------------------------|
G|----------------------------------------------------------------------|
D|----2---3--------------------------------------2---3----5----3----2---|
A|----2---3---------------------6-5-3-------3----2---3----5----3----2---|
E|-00---0---00-5-00-3-00-1-00-3-------5-3-5---00---0---00---00---00---0-|

E|---------------------------|
B|---------------------------|
G|---------------------------|
D|-----------------5---5\3---|
A|---5-3-----------3-5-3\1-2-|
E|-6-----6-3-0-1/3---3-----0-|
PM                 * * *** 
Tap to rate this tab
 
# A B C D E F G H I J K L M N O P Q R S T U V W X Y Z