Song name
# A B C D E F G H I J K L M N O P Q R S T U V W X Y Z

Washya - Permenant tab

-------------------------------------------------------------------------------
                  Permenant - Washya 
-------------------------------------------------------------------------------
Tuning: D Standard (DAFCGD)
Intro
D|-----------------------------------------------|
A|-----------------------------------------------|
F|-----------------------------------------------|
C|---------------------------------5*-----5*-----|
G|-7\6-xx-xxx-xx-7\6-xx-xxx-xx-7\6----3-2----7\6-|
D|-5\4-xx-xxx-xx-5\4-xx-xxx-xx-5\4----1-0----5\4-|

Verses 
D|-----------------------------------------------------------------------|
A|-----------------------------------------------------------------------|
F|-----------------------------------------------------------------------|
C|-----------------------------------------------------------------------|
G|-xx-xx-xxxx-xx-xx-xx-xxxx-xx-xx-7\6-xx-xx-xxxx-xx-xx-xx-xxxx-xx-xx-3-2-|
D|-xx-xx-xxxx-xx-xx-xx-xxxx-xx-xx-5\4-xx-xx-xxxx-xx-xx-xx-xxxx-xx-xx-1-0-|

Chorus
D|------------------------------------------------------------------|
A|------------------------------------------------------------------|
F|------------------------------------------------------------------|
C|------------------------------------------------------------------|
G|-7777777777777777\6666666666666666\555555555555555\22222222222222-|
D|-5555555555555555\4444444444444444\333333333333333\00000000000000-|

Interlude
D|----------------------------------------------------------|
A|----------------------------------------------------6-----|
F|------------------------------------------------------5---|
C|----------------------------------------------5---5-----5-|
G|-22-22-2222-22-22-22-2222-22-22-22-2222-22-22---3---------|
D|-00-00-0000-00-00-00-0000-00-00-00-0000-00-00-------------|
PM ** ** **** ** ** ** **** ** ** ** **** ** ** 
Tap to rate this tab
# A B C D E F G H I J K L M N O P Q R S T U V W X Y Z