Song name
# A B C D E F G H I J K L M N O P Q R S T U V W X Y Z

Washya - Rocking By Rocker tab

-------------------------------------------------------------------------------
           Rocking By Rocker - Washya
-------------------------------------------------------------------------------
Tuning: Drop D (DADGBE)
Intro (light)
E|-----------------------------|
B|-----------------------------|
G|-----------------------------|
D|-0-2-222-0-2-222-0-222-0-222-|
A|-0-2-222-0-2-222-0-222-0-222-|
D|-----------------------------|x2

Intro 2 (heavier w/dist)
E|-----------------------------|------------|
B|-----------------------------|------------|
G|-----------------------------|------------|
D|-----------------------------|---7777-----|
A|-0-2-222-0-2-222-0-222-0-222-|-0-5555-333-|
D|-0-2-222-0-2-222-0-222-0-222-|-0------333-|
                              x2
Verses
E|---------------------------------------------------------------------|
B|---------------------------------------------------------------------|
G|---------------------------------------------------------------------|
D|-7-77-----------------------3p2p0-4-444-4-2--------------5/777-------|
A|-5-55-3h4-5-555-2-222-3p2p0-------2-222-2-0-3-2-0-2-3-2-/3/555-8-5-7-|
D|----------5-555-2-222-----------------------3-2-0-2-3-2--------8-5-7-|

Chorus
E|-----------------------------------------------|
B|-----------------------------------------------|
G|-----------------------------------------------|
D|-5/7-7777------------------7-777/9-9-----------|
A|-3/5-5555-5h7-3-333-0-0000-5-555/7-7-8\7-3/5\\-|
D|----------5h7-3-333-0-0000-----------8\7-3/5\\-|

Solo
E|----7--------7--------7--------------------------------12------12---------|
B|----7h8p7----7h8p7----7h8p7---8-------------------8-7/----10p8----10p8-10-|
G|-9b-------9b-------9b-------9---9-7---8-7-------9-------------------------|
D|------------------------------------9-----9-8-7---------------------------|
A|--------------------------------------------------------------------------|
D|--------------------------------------------------------------------------|
Tap to rate this tab
# A B C D E F G H I J K L M N O P Q R S T U V W X Y Z