Song name
# A B C D E F G H I J K L M N O P Q R S T U V W X Y Z

Washya - Admitted tab

-------------------------------------------------------------------------------
                           Admitted - Washya
-------------------------------------------------------------------------------
Tuning: Drop C (DAFCGC)
Intro
D|------------------------------|
A|------------------------------|
F|------------------------------|
C|------------------------------|
G|------3----5----3----5----555-|
C|-1~//---00---00---00---00-----|x3
PM        **   **   **   ** 

Main Riff/Verses
D|-----------------------------------------------------------------------|
A|-----------------------------------------------------------------------|
F|-----------------------------------------------------------------------|
C|-----------------------------------------------------------------------|
G|-0-0-0-0-0-0-0-0-0-3h5h6\\-0-0-0-0-0-0-0-0-0-3h5h6\\-0-0-0-0-0-0-0-0-0-|
C|-0-0-0-0-0-0-0-0-0-3h5h6\\-0-0-0-0-0-0-0-0-0-3h5h6\\-0-0-0-0-0-0-0-0-0-|
PM * * * * * * * * *         * * * * * * * * *         * * * * * * * * * 

D|-----------------------------------|
A|-----------------------------------|
F|-----------------------------------|
C|-5/7/8\\-------------------5/7/8\\-|
G|-3/5/6\\-0-0-0-0-0-0-0-0-0-3/5/6\\-|
C|---------0-0-0-0-0-0-0-0-0---------|
PM         * * * * * * * * * 

Chorus
D|-----------------------------------------|
A|-----------------------------------------|
F|-----------------------------------------|
C|------8\7/8---------------55-3-5---------|
G|-22-0-6\5/6-3-3333h5555-0-33-1-3-1h3h4\\-|
C|-22-0-------3-3333h5555-0--------1h3h4\\-|
Tap to rate this tab
# A B C D E F G H I J K L M N O P Q R S T U V W X Y Z