Song name
# A B C D E F G H I J K L M N O P Q R S T U V W X Y Z

Washya - Mirrored tab

-------------------------------------------------------------------------------
                              mirrored - washya
-------------------------------------------------------------------------------
Tuning: Standard (EBGDAE)
Intro
E|----------------|
B|----------------|
G|----------------|
D|----------------|
A|-22--22--22--22-|
E|-00--00--00--00-|x2
PM **  **  **  **

Part2
E|------------------------------------------------|
B|------------------------------------------------|
G|------------------------------------------------|
D|------------------------------------------------|
A|-222-2-2-222-2-2-222-2-2-222-2-2-33-333/555/666-|
E|-000-0-0-000-0-0-000-0-0-000-0-0-11-111/333/444-|x2
PM *** * * *** * * *** * * *** * * ** *********** 

Main Riff
E|------------------------------------------------------|
B|------------------------------------------------------|
G|--------------2h3p2-----2-------------2h3p2---------2-|
D|-2h3p2---2h3--------5-3---2h3p2---2h3-------5-2h3h5---|
A|-------5------------------------5---------------------|
E|------------------------------------------------------|

Part 3/Verses
E|----------------------------------|   |-----------------------|
B|----------------------------------|   |-----------------------|
G|----------------------------------|   |-----------------------|
D|----------------------------------|   |-----------------------|
A|------3*---------------2*---------|   |-----------------7-7-7-|
E|-2222----222-222--0000----000-000-|x2 |-000-000h222h333-5-5-5-|
PM ****    *** ***  ****    *** ***       *** *********** 

Chorus
E|------------------------------------------------------------|
B|------------------------------------------------------------|
G|------------------------------------------------------------|
D|----77----99----5----------------55----77----33-------------|
A|-xx-55-xx-77-xx-3-------2-----xx-33-xx-55-xx-11-------3p2---|
E|-xx----xx----xx---2h3h5---5p3-xx----xx----xx----2h3h5-----3-|
PM                  *****   ***                   *****     * 

Main Riff
E|------------------------------------------------------|
B|------------------------------------------------------|
G|--------------2h3p2-----2-------------2h3p2---------2-|
D|-2h3p2---2h3--------5-3---2h3p2---2h3-------5-2h3h5---|
A|-------5------------------------5---------------------|
E|------------------------------------------------------|
Tap to rate this tab
 
# A B C D E F G H I J K L M N O P Q R S T U V W X Y Z