Song name
# A B C D E F G H I J K L M N O P Q R S T U V W X Y Z

Washya - Kill And Repeat Kill And Repeat tab

-----------------------------------------------------------------------------
             Kill and Repeat Kill and Repeat - Washya
-----------------------------------------------------------------------------
Tuning: Drop C (DAFCGC)
Intro/Chorus
D|----------------------------------------------|
A|----------------------------------------------|
F|----------------------------------------------|
C|------8p7-7p6-6p5-8p7p5--8---7---9---7---5----|
G|------8p7-7p6-6p5-8p7p5--8---7---9---7---5----|
C|-0000-8p7-7p6-6p5-8p7p5-/88887777999977775555-|
PM ****                     *** *** *** *** *** 

Part 2
D|-------------------------------|
A|-------------------------------|
F|---------9*-------7*-----------|
C|-----7---------5-------------5-|
G|-----7---------5-----6p5-----5-|
C|-777777-----55555--------8p7p5-|
PM **** *     *** *        **** 

Verses
D|------------------------------------------------------------------|
A|------------------------------------------------------------------|
F|------------------------------------------------------------------|
C|----0---8p7---7---7--8p7p5p3---1/3/4----0----4\3/6----------------|
G|----0---8p7---7---7--8p7p5p3---1/3/4----0----4\3/6-----6p5--------|
C|-000000-8p777777777-/8p7p5p33331/3/44444000004\3/66666-----7p6-3~-|
PM *** **    *** ***          ***     **** ****     **** 
Tap to rate this tab
 
# A B C D E F G H I J K L M N O P Q R S T U V W X Y Z