Song name
# A B C D E F G H I J K L M N O P Q R S T U V W X Y Z

Washya - Valentine Massacre tab

-------------------------------------------------------------------------------
                           Valantine Massacre - Washya
-------------------------------------------------------------------------------
Tuning: Drop C (DAFCGC)
Intro
D|--------------------------------------------------|
A|--------------------------------------------------|
F|-------8-------8-8h9p8-------8-------8-9\7-----8*-|
C|-----9-------9---------9---9-------9--------------|
G|---7-------7-------------7-------7-----7\5-5-7----|
C|-0-------0---------------------0-----------5-7----|

Verses
D|-----------------------------------------------------------|
A|-----------------------------------------------------------|
F|-----------------------------------------------------------|
C|-----------------------------------------------------------|
G|-0-0-00-0-0-00-0-0-00-0-0-00-0-434/8-434/8-434/8-434/8\7\\-|
C|-0-0-00-0-0-00-0-0-00-0-0-00-0-434/8-434/8-434/8-434/8\7\\-|
PM * * ** * * ** * * ** * * ** * ***   ***   ***   ***  

Chorus
D|--------------------------------------------------------------------|
A|--------------------------------------------------------------------|
F|-9999999999-6666666666-----------------------------------------7-77-|
C|--------------------------------------------------------------------|
G|-7777777777-4444444444-44444444444-34234-34234-444-44-4/8\7777-5-55-|
C|-----------------------44444444444-34234-34234-444-44-4/8\7777------|
Tap to rate this tab
# A B C D E F G H I J K L M N O P Q R S T U V W X Y Z