Song name
# A B C D E F G H I J K L M N O P Q R S T U V W X Y Z

Washya - Revenge Is A Dish Best Served Cold tab

-----------------------------------------------------------------------------
      Revenge Is A Dish Best Served Cold - Washya           
-----------------------------------------------------------------------------
Tuning: Drop D (EBGDAD)
Intro
E|----------------------------------|
B|----------------------------------|
G|----------------------------------|
D|----------------------------------|
A|-33-3h5-55-5h7-77-7h8-3h5-3h5-3-0-|
D|-33-3h5-55-5h7-77-7h8-3h5-3h5-3-0-|
PM ** *   ** *   ** *   *** *** 

Verses
E|-----------------------------------|
B|-----------------------------------|
G|------3*------5*------7*-----------|
D|-----------------------------------|
A|-00-0----00-0----00-0----1h3-1h3-1-|
D|-00-0----00-0----00-0----1h3-1h3-1-|
PM ** *    ** *    ** *     

Chorus
E|------------------------------------------------------------|
B|------------------------------------------------------------|
G|------------------------------------------------------------|
D|-----------------1p0-3/55555--------------------------------|
A|-3p1p0-1/33333-3-----1/33333-5p3p0-----111111-/-4-3-1-3-1-0-|
D|-------1/33333---------------------3p0-111111-/-4-3-1-3-1-0-|
Tap to rate this tab
# A B C D E F G H I J K L M N O P Q R S T U V W X Y Z