Song name
# A B C D E F G H I J K L M N O P Q R S T U V W X Y Z

Washya - Gun Misfired tab

-----------------------------------------------------------------------------
                                 Gun Misfired - Washya
-----------------------------------------------------------------------------
Tuning: Drop D (EBGDAD)
Intro
E|----------------------------|
B|----------------------------|
G|----------------------------|
D|----------------------------|
A|-6-665-3-5-553-1-3-33-2-2-0-|
D|-6-665-3-5-553-1-3-33-2-2-0-|x2

Verses
E|--------------------------------------------------|
B|--------------------------------------------------|
G|--------------------------------------------------|
D|-------------------------------------5------------|
A|-3---5---1---3---3---5---3---6---3-------3---3h5~-|
D|---0---0---0---0---0---0---0---0---0---0---0------|
PM   *   *   *   *   *   *   *   *   *   *   * 

Part 2
E|-------------------|
B|-------------------|
G|-------------------|
D|-------------------|
A|-211-211-211-211-0-|
D|-211-211-211-211-0-|

Chorus
E|-----------------------------------------------|
B|-----------------------------------------------|
G|-7-4-2-------------------4-7-------------------|
D|-7-4-2-------------------4-7-------------------|
A|-5-2-0-33333333/66666666-2-5-22222222/55555555-|
D|-------33333333/66666666-----22222222/55555555-|
PM       *****************     ***************** 
Tap to rate this tab
 
# A B C D E F G H I J K L M N O P Q R S T U V W X Y Z