Song name
# A B C D E F G H I J K L M N O P Q R S T U V W X Y Z

Washya - Energetic Reaction tab

-----------------------------------------------------------------------------
          Energetic Reaction - washya
-----------------------------------------------------------------------------
Tuning: Standard (EBGDAE)
Intro
E|---------------------------------------|
B|---------------------------------------|
G|-9-99999-555-7----7/9-99999------------|
D|-9-99999-555-7----7/9-99999-555-7----7-|
A|-7-77777-333-5-xx-5/7-77777-555-7-xx-7-|
E|---------------xx-----------333-5-xx-5-|

Verses
E|-------------------------------------|
B|-------------------------------------|
G|----999----9-9-99-99----999----------|
D|----999----9-9-99-99----999-3333-555-|
A|----777----7-7-77-77----777-3333-555-|
E|-00-----00-----------00-----1111-333-|
PM **     **           ** 

Chorus
E|----------------------------------------------------------------|
B|----------------------------------------------------------------|
G|-55555555/88888888-----------------2222222-7777777--------------|
D|-55555555/88888888-8888888\4444444-2222222-7777777-7777\666\444-|
A|-33333333/66666666-8888888\4444444-0000000-5555555-7777\666\444-|
E|-------------------6666666\2222222-----------------5555\444\222-|
Tap to rate this tab
# A B C D E F G H I J K L M N O P Q R S T U V W X Y Z