Song name
# A B C D E F G H I J K L M N O P Q R S T U V W X Y Z

Washya - Sugar Rush tab

-----------------------------------------------------------------------------
                         Sugar Rush - Washya
-----------------------------------------------------------------------------
Tuning: Standard (EBGDAE)
Intro/Verses
E|------------------------------------------------------------------------|
B|------------------------------------------------------------------------|
G|------------------------------------------------------------------------|
D|-11111111111111/44444444444/66666666666--1111111111/444444444-----------|
A|--------------------------------------------------------------666666666-|
E|------------------------------------------------------------------------|

Chorus
E|-------------------------------------------------------|
B|-------------------------------------------------------|
G|-------------------------------------------------------|
D|-9-9-999-7-------9-9-999-11-11111111-9-9-999-7-7-777---|
A|-7-7-777-5-77777-7-7-777-9--9-9-999--7-7-777-5-5-555-2-|
E|-----------55555-------------------------------------0-|

interlude
E|------------------------------------------------------|
B|------------------------------------------------------|
G|------------------------------------------------------|
D|-1111111111111111--------------------------1~-------5-|
A|-------------------555555555555---------------5~----5-|
E|--------------------------------3333333333-------3~-3-|
Tap to rate this tab
 
# A B C D E F G H I J K L M N O P Q R S T U V W X Y Z