Song name
# A B C D E F G H I J K L M N O P Q R S T U V W X Y Z

Washya - Kings Of The Cross tab

-----------------------------------------------------------------------------
                      Kings Of The Cross - Washya
-----------------------------------------------------------------------------
Tuning: Standard (EBGDAE)
Intro
E|-----------------------------------------------------0-------|
B|-------------------------------------------------------0-----|
G|-9-99----9-----7-77-----7-----5-55----5------------------0---|
D|-9-99------9---7-77-------7---5-55------5---2-22-----------2-|
A|-7-77-77-----7-5-55-55------5-3-33-33-----3-2-22---2---------|
E|--------------------------------------------0-00-0-----------|
PM      **            **             **              

Verses C, Em, D, A, G, Em
E|-------0------------0-------2---0-------0-----3-----3---------0-|
B|-1-0h1----------------0-----3-3-----3---------3-------3-------0-|
G|-0----------------------0---2-----2---2-------0---------------0-|
D|-2-------2----2-----------2-----------2-----2-0---0-----------2-|
A|-3---------3--2---2-------------------2---2---2-2-------------2-|
E|--------------0-0-----------------------------3---------0h2h3-0-|

Chorus
E|-------------------------|
B|-------------------------|
G|---44-99-9-----5-55------|
D|-2-44-99-9-----5-55-54-2-|
A|-2-22-77-7-0h2h3-33-44-2-|
E|-0------------------22-0-|
Tap to rate this tab
# A B C D E F G H I J K L M N O P Q R S T U V W X Y Z