Song name
# A B C D E F G H I J K L M N O P Q R S T U V W X Y Z

Washya - Bottle O Pills tab

-----------------------------------------------------------------------------
                   Bottle O Pills - Washya
-----------------------------------------------------------------------------
Tuning: Standard (EBGDAE)
Intro
E|--------------------------------------------------------------|
B|--------------------------------------------------------------|
G|-4444-4-44-44-4-4/777-4444-4-44-2-222-7777-7-77---------------|
D|-4444-4-44-44-4-4/777-4444-4-44-2-222-7777-7-77-5555-5-55/777-|
A|-2222-2-22-22-2-2/555-2222-2-22-0-000-5555-5-55-5555-5-55/777-|
E|------------------------------------------------3333-3-33/555-|x2

Verses
E|----------------------------------------------------|
B|----------------------------------------------------|
G|-444-44-4-4-4/7777------------------------------777-|
D|-444-44-4-4-4/7777-5555-55-5-5/7777-3333-33-3-3-777-|
A|-222-22-2-2-2/5555-5555-55-5-5/7777-3333-33-3-3-555-|
E|-------------------3333-33-3-3/5555-1111-11-1-1-----|

Chorus
E|------------------------------------------------------------------------|
B|------------------------------------------------------------------------|
G|-777-77-7-77-------------------------333-33-3-33/5555-55-5-55-----------|
D|-777-77-7-77-555-55-5-55/777-77-7-77-333-33-3-33/5555-55-5-55-3333-22-5-|
A|-555-55-5-55-555-55-5-55/777-77-7-77-111-11-1-11/3333-33-3-33-3333-22-5-|
E|-------------333-33-3-33/555-55-5-55--------------------------1111-00-3-|

Solo
E|---------------------------------------7--------7--------7b/10b----------|
B|---------------------7----9bp7---------7h8p7----7h8p7----7b/-------12----|
G|----9---7h9p7--------7----9b--------9b-------9b-------9b--------11----11-|
D|-/9---9-------9b~-/9----9------9\7~--------------------------------------|
A|-------------------------------------------------------------------------|
E|-------------------------------------------------------------------------|

E|----------------------------8b--10b-12b--------------------|
B|-12----12----13~-----------/10b-12b-14b-14p12----12b-12b~~-|
G|----11----11-----/9-7-------------------------13-----------|
D|----------------------9\7~---------------------------------|
A|-----------------------------------------------------------|
E|-----------------------------------------------------------|
Tap to rate this tab
# A B C D E F G H I J K L M N O P Q R S T U V W X Y Z