Song name
# A B C D E F G H I J K L M N O P Q R S T U V W X Y Z

Washya - Receive And Destroy tab

-----------------------------------------------------------------------------
                 Receive and Destroy - Washya
-----------------------------------------------------------------------------
Tuning: Standard (EBGDAE)
Intro
E|-------------------------------------------------|
B|-------------------------------------------------|
G|-----7h8h10\\------------------------------------|
D|------------------7h8h10\\-----------7---7-9~~\\-|
A|---------------------------9p8p7h8h9---9---------|
E|-000----------000--------------------------------|x3
PM ***          *** 

Verses
E|-------------------------------------------------------------------------|
B|-------------------------------------------------------------------------|
G|-------------------------------------------------------------------------|
D|---------------------5---------------------2-----------------------------|
A|-----------------9\8-5-----------------5\4-0-----------------999-555/7\\-|
E|-0-0-0-0-0-0-0-0-7\6---0-0-0-0-0-0-0-0-3\2---0-0-0-0-0-0-0-0-777-333/5\\-|
PM * * * * * * * *       * * * * * * * *       * * * * * * * * 

Chorus
E|------------------------------------------------------------------|
B|------------------------------------------------------------------|
G|------------------------------------------------------------------|
D|-------------------------12----/7-------------------------10---/5-|
A|-2-2-2-2-2-2-2-2-2-2-2-2-10-10-/5-2-2-2-2-2-2-2-2-2-2-2-2-8--8-/3-|
E|-0-0-0-0-0-0-0-0-0-0-0-0----8-----0-0-0-0-0-0-0-0-0-0-0-0----6----|
PM * * * * * * * * * * * *          * * * * * * * * * * * * 

Just before solo (interlude)
E|------------------------------------------------------|
B|------------------------------------------------------|
G|-3p2p0-----------------------3p2p0--------------------|
D|-------2p0---0h2-----5\4-----------2p0----0h2-2-------|
A|-----------2-----7/8-3\2-3/5-----------2------0-3/4/6-|
E|-----------------5/6-----1/3--------------------1/2/4-|
Tap to rate this tab
# A B C D E F G H I J K L M N O P Q R S T U V W X Y Z