Song name
# A B C D E F G H I J K L M N O P Q R S T U V W X Y Z

Washya - Fridays Gone tab

-----------------------------------------------------------------------------
                   Friday's Gone - Washya
-----------------------------------------------------------------------------
Tuning: Drop D (DADGBE)
Intro
E|---------------------------------|
B|---------------------------------|
G|-5555/777------------------------|
D|-5555/777-0-0000-2h3p2-0h2-0-2b~-|
A|-3333/555-0-0000-2h3p2-0h2-0-----|
D|----------0-0000-2h3p2-0h2-0-----|

Verses
E|------------------|----------------|
B|-----------------------------------|
G|-----------------------------------|
D|-0-0000-77h8\\-0-0000-7-77h8-5h7\\-|
A|-0-0000-77h8\\-0-0000-7-77h8-5h7\\-|
D|-0-0000-77h8\\-0-0000-7-77h8-5h7\\-|
PM * ****        * ****  

Chorus
E|--------------------------------------------|
B|--------------------------------------------|
G|--------------------------------------------|
D|-7777-888-7-7777-5/7/8\\3h55555-3h5h8\7-1/3-|
A|-7777-888-7-7777-5/7/8\\3h55555-3h5h8\7-1/3-|
D|-7777-888-7-7777-5/7/8\\3h55555-3h5h8\7-1/3-|

Interlude
E|--------------------------------------------------------------------|
B|--------------------------------------------------------------------|
G|--------------------3/5---------------------------------------------|
D|-0000-0-0-1-3-4-3-0-3/5-0000-0-0---------5-----0000-0-0-0-3-1-0-1-0-|
A|-0000-0-0-1-3-4-3-0-1/3-0000-0-0-0h3h5h6-------0000-0-0-0-3-1-0-1-0-|
D|-0000-0-0-1-3-4-3-0-----0000-0-0-----------3/5-0000-0-0-0-3-1-0-1-0-|x2
PM **** * *               **** * *           *** **** * *   
Tap to rate this tab
# A B C D E F G H I J K L M N O P Q R S T U V W X Y Z